  0
SECTION
  2
HEADER
  9
$ACADVER
  1
AC1015
  9
$ACADMAINTVER
 70
     6
  9
$DWGCODEPAGE
  3
ANSI_1254
  9
$INSBASE
 10
0.0
 20
0.0
 30
0.0
  9
$EXTMIN
 10
0.0
 20
0.0
 30
0.0
  9
$EXTMAX
 10
279.4
 20
215.9
 30
0.0
  9
$LIMMIN
 10
0.0
 20
0.0
  9
$LIMMAX
 10
279.4
 20
215.9
  9
$ORTHOMODE
 70
     0
  9
$REGENMODE
 70
     1
  9
$FILLMODE
 70
     1
  9
$QTEXTMODE
 70
     0
  9
$MIRRTEXT
 70
     1
  9
$LTSCALE
 40
1.0
  9
$ATTMODE
 70
     1
  9
$TEXTSIZE
 40
3.5
  9
$TRACEWID
 40
1.0
  9
$TEXTSTYLE
  7
Standard
  9
$CLAYER
  8
0
  9
$CELTYPE
  6
ByLayer
  9
$CECOLOR
 62
   256
  9
$CELTSCALE
 40
1.0
  9
$DISPSILH
 70
     0
  9
$DIMSCALE
 40
1.0
  9
$DIMASZ
 40
3.5
  9
$DIMEXO
 40
1.0
  9
$DIMDLI
 40
3.75
  9
$DIMRND
 40
0.0
  9
$DIMDLE
 40
0.0
  9
$DIMEXE
 40
1.0
  9
$DIMTP
 40
0.0
  9
$DIMTM
 40
0.0
  9
$DIMTXT
 40
3.5
  9
$DIMCEN
 40
2.5
  9
$DIMTSZ
 40
0.0
  9
$DIMTOL
 70
     0
  9
$DIMLIM
 70
     0
  9
$DIMTIH
 70
     1
  9
$DIMTOH
 70
     1
  9
$DIMSE1
 70
     0
  9
$DIMSE2
 70
     0
  9
$DIMTAD
 70
     1
  9
$DIMZIN
 70
     0
  9
$DIMBLK
  1

  9
$DIMASO
 70
     1
  9
$DIMSHO
 70
     1
  9
$DIMPOST
  1

  9
$DIMAPOST
  1

  9
$DIMALT
 70
     0
  9
$DIMALTD
 70
     3
  9
$DIMALTF
 40
0.0393700787
  9
$DIMLFAC
 40
1.0
  9
$DIMTOFL
 70
     1
  9
$DIMTVP
 40
0.0
  9
$DIMTIX
 70
     0
  9
$DIMSOXD
 70
     0
  9
$DIMSAH
 70
     0
  9
$DIMBLK1
  1

  9
$DIMBLK2
  1

  9
$DIMSTYLE
  2
ISO-25
  9
$DIMCLRD
 70
     0
  9
$DIMCLRE
 70
     0
  9
$DIMCLRT
 70
     0
  9
$DIMTFAC
 40
1.0
  9
$DIMGAP
 40
1.524
  9
$DIMJUST
 70
     0
  9
$DIMSD1
 70
     0
  9
$DIMSD2
 70
     0
  9
$DIMTOLJ
 70
     0
  9
$DIMTZIN
 70
     0
  9
$DIMALTZ
 70
     0
  9
$DIMALTTZ
 70
     0
  9
$DIMUPT
 70
     0
  9
$DIMDEC
 70
     2
  9
$DIMTDEC
 70
     2
  9
$DIMALTU
 70
     2
  9
$DIMALTTD
 70
     3
  9
$DIMTXSTY
  7
Standard
  9
$DIMAUNIT
 70
     0
  9
$DIMADEC
 70
     2
  9
$DIMALTRND
 40
0.0
  9
$DIMAZIN
 70
     0
  9
$DIMDSEP
 70
    44
  9
$DIMATFIT
 70
     3
  9
$DIMFRAC
 70
     0
  9
$DIMLDRBLK
  1

  9
$DIMLUNIT
 70
     2
  9
$DIMLWD
 70
    -2
  9
$DIMLWE
 70
    -2
  9
$DIMTMOVE
 70
     0
  9
$LUNITS
 70
     2
  9
$LUPREC
 70
     2
  9
$SKETCHINC
 40
1.0
  9
$FILLETRAD
 40
10.0
  9
$AUNITS
 70
     0
  9
$AUPREC
 70
     2
  9
$MENU
  1
.
  9
$ELEVATION
 40
0.0
  9
$PELEVATION
 40
0.0
  9
$THICKNESS
 40
0.0
  9
$LIMCHECK
 70
     0
  9
$CHAMFERA
 40
0.0
  9
$CHAMFERB
 40
0.0
  9
$CHAMFERC
 40
0.0
  9
$CHAMFERD
 40
0.0
  9
$SKPOLY
 70
     0
  9
$TDCREATE
 40
2460704.460240706
  9
$TDUCREATE
 40
2460704.335240706
  9
$TDUPDATE
 40
2460704.460240856
  9
$TDUUPDATE
 40
2460704.335240856
  9
$TDINDWG
 40
0.0000000116
  9
$TDUSRTIMER
 40
0.0000000116
  9
$USRTIMER
 70
     1
  9
$ANGBASE
 50
0.0
  9
$ANGDIR
 70
     0
  9
$PDMODE
 70
     0
  9
$PDSIZE
 40
-1.0
  9
$PLINEWID
 40
0.0
  9
$SPLFRAME
 70
     0
  9
$SPLINETYPE
 70
     6
  9
$SPLINESEGS
 70
     8
  9
$HANDSEED
  5
B7
  9
$SURFTAB1
 70
     6
  9
$SURFTAB2
 70
     6
  9
$SURFTYPE
 70
     6
  9
$SURFU
 70
     6
  9
$SURFV
 70
     6
  9
$UCSBASE
  2

  9
$UCSNAME
  2

  9
$UCSORG
 10
0.0
 20
0.0
 30
0.0
  9
$UCSXDIR
 10
1.0
 20
0.0
 30
0.0
  9
$UCSYDIR
 10
0.0
 20
1.0
 30
0.0
  9
$UCSORTHOREF
  2

  9
$UCSORTHOVIEW
 70
     0
  9
$UCSORGTOP
 10
0.0
 20
0.0
 30
0.0
  9
$UCSORGBOTTOM
 10
0.0
 20
0.0
 30
0.0
  9
$UCSORGLEFT
 10
0.0
 20
0.0
 30
0.0
  9
$UCSORGRIGHT
 10
0.0
 20
0.0
 30
0.0
  9
$UCSORGFRONT
 10
0.0
 20
0.0
 30
0.0
  9
$UCSORGBACK
 10
0.0
 20
0.0
 30
0.0
  9
$PUCSBASE
  2

  9
$PUCSNAME
  2

  9
$PUCSORG
 10
0.0
 20
0.0
 30
0.0
  9
$PUCSXDIR
 10
1.0
 20
0.0
 30
0.0
  9
$PUCSYDIR
 10
0.0
 20
1.0
 30
0.0
  9
$PUCSORTHOREF
  2

  9
$PUCSORTHOVIEW
 70
     0
  9
$PUCSORGTOP
 10
0.0
 20
0.0
 30
0.0
  9
$PUCSORGBOTTOM
 10
0.0
 20
0.0
 30
0.0
  9
$PUCSORGLEFT
 10
0.0
 20
0.0
 30
0.0
  9
$PUCSORGRIGHT
 10
0.0
 20
0.0
 30
0.0
  9
$PUCSORGFRONT
 10
0.0
 20
0.0
 30
0.0
  9
$PUCSORGBACK
 10
0.0
 20
0.0
 30
0.0
  9
$USERI1
 70
     0
  9
$USERI2
 70
     0
  9
$USERI3
 70
     0
  9
$USERI4
 70
     0
  9
$USERI5
 70
     0
  9
$USERR1
 40
0.0
  9
$USERR2
 40
0.0
  9
$USERR3
 40
0.0
  9
$USERR4
 40
0.0
  9
$USERR5
 40
0.0
  9
$WORLDVIEW
 70
     1
  9
$SHADEDGE
 70
     3
  9
$SHADEDIF
 70
    70
  9
$TILEMODE
 70
     1
  9
$MAXACTVP
 70
    64
  9
$PINSBASE
 10
0.0
 20
0.0
 30
0.0
  9
$PLIMCHECK
 70
     0
  9
$PEXTMIN
 10
1.0000000000E+20
 20
1.0000000000E+20
 30
1.0000000000E+20
  9
$PEXTMAX
 10
-1.0000000000E+20
 20
-1.0000000000E+20
 30
-1.0000000000E+20
  9
$PLIMMIN
 10
0.0
 20
0.0
  9
$PLIMMAX
 10
420.0
 20
297.0
  9
$UNITMODE
 70
     0
  9
$VISRETAIN
 70
     1
  9
$PLINEGEN
 70
     0
  9
$PSLTSCALE
 70
     1
  9
$TREEDEPTH
 70
  3020
  9
$CMLSTYLE
  2
Standard
  9
$CMLJUST
 70
     0
  9
$CMLSCALE
 40
20.0
  9
$PROXYGRAPHICS
 70
     1
  9
$MEASUREMENT
 70
     1
  9
$CELWEIGHT
370
    -1
  9
$ENDCAPS
280
     0
  9
$JOINSTYLE
280
     0
  9
$LWDISPLAY
290
     1
  9
$INSUNITS
 70
     4
  9
$HYPERLINKBASE
  1

  9
$STYLESHEET
  1

  9
$XEDIT
290
     1
  9
$CEPSNTYPE
380
     0
  9
$PSTYLEMODE
290
     1
  9
$FINGERPRINTGUID
  2
{c4a3e945-981a-4f39-a577-d0908346e5bf}
  9
$VERSIONGUID
  2
{FAEB1C32-E019-11D5-929B-00C0DF256EC4}
  9
$EXTNAMES
290
     1
  9
$PSVPSCALE
 40
0.0
  9
$OLESTARTUP
290
     0
  0
ENDSEC
  0
SECTION
  2
CLASSES
  0
CLASS
  1
ACDBDICTIONARYWDFLT
  2
AcDbDictionaryWithDefault
  3
ObjectDBX Classes
 90
        0
280
     0
281
     0
  0
CLASS
  1
VISUALSTYLE
  2
AcDbVisualStyle
  3
ObjectDBX Classes
 90
     4095
280
     0
281
     0
  0
CLASS
  1
MATERIAL
  2
AcDbMaterial
  3
ObjectDBX Classes
 90
     1153
280
     0
281
     0
  0
CLASS
  1
SCALE
  2
AcDbScale
  3
ObjectDBX Classes
 90
     1153
280
     0
281
     0
  0
CLASS
  1
TABLESTYLE
  2
AcDbTableStyle
  3
ObjectDBX Classes
 90
     4095
280
     0
281
     0
  0
CLASS
  1
MLEADERSTYLE
  2
AcDbMLeaderStyle
  3
ACDB_MLEADERSTYLE_CLASS
 90
     4095
280
     0
281
     0
  0
CLASS
  1
SUN
  2
AcDbSun
  3
SCENEOE
 90
     1153
280
     0
281
     0
  0
CLASS
  1
ACDBPLACEHOLDER
  2
AcDbPlaceHolder
  3
ObjectDBX Classes
 90
        0
280
     0
281
     0
  0
CLASS
  1
LAYOUT
  2
AcDbLayout
  3
ObjectDBX Classes
 90
        0
280
     0
281
     0
  0
ENDSEC
  0
SECTION
  2
TABLES
  0
TABLE
  2
VPORT
  5
8
330
0
100
AcDbSymbolTable
 70
     1
  0
VPORT
  5
29
330
8
100
AcDbSymbolTableRecord
100
AcDbViewportTableRecord
  2
*Active
 70
     0
 10
0.0
 20
0.0
 11
1.0
 21
1.0
 12
139.7
 22
107.95
 13
0.0
 23
0.0
 14
10.0
 24
10.0
 15
10.0
 25
10.0
 16
0.0
 26
0.0
 36
1.0
 17
0.0
 27
0.0
 37
0.0
 40
215.9
 41
1.2941176471
 42
50.0
 43
0.0
 44
0.0
 50
0.0
 51
0.0
 71
     0
 72
  2000
 73
     1
 74
     3
 75
     0
 76
     0
 77
     0
 78
     0
281
     0
 65
     1
110
0.0
120
0.0
130
0.0
111
1.0
121
0.0
131
0.0
112
0.0
122
1.0
132
0.0
 79
     0
146
0.0
  0
ENDTAB
  0
TABLE
  2
LTYPE
  5
5
330
0
100
AcDbSymbolTable
 70
     6
  0
LTYPE
  5
14
330
5
100
AcDbSymbolTableRecord
100
AcDbLinetypeTableRecord
  2
ByBlock
 70
     0
  3

 72
    65
 73
     0
 40
0.0
  0
LTYPE
  5
15
330
5
100
AcDbSymbolTableRecord
100
AcDbLinetypeTableRecord
  2
ByLayer
 70
     0
  3

 72
    65
 73
     0
 40
0.0
  0
LTYPE
  5
16
330
5
100
AcDbSymbolTableRecord
100
AcDbLinetypeTableRecord
  2
Continuous
 70
     0
  3
Solid line
 72
    65
 73
     0
 40
0.0
  0
LTYPE
  5
6E
330
5
100
AcDbSymbolTableRecord
100
AcDbLinetypeTableRecord
  2
HIDDEN
 70
     0
  3
Hidden __ __ __ __ __ __ __ __ __ __ __ __ __ __
 72
    65
 73
     2
 40
1.905
 49
1.27
 74
     0
 49
-0.635
 74
     0
  0
LTYPE
  5
6F
330
5
100
AcDbSymbolTableRecord
100
AcDbLinetypeTableRecord
  2
PHANTOM
 70
     0
  3
Phantom ______  __  __  ______  __  __  ______
 72
    65
 73
     6
 40
12.7
 49
6.35
 74
     0
 49
-1.27
 74
     0
 49
1.27
 74
     0
 49
-1.27
 74
     0
 49
1.27
 74
     0
 49
-1.27
 74
     0
  0
LTYPE
  5
70
330
5
100
AcDbSymbolTableRecord
100
AcDbLinetypeTableRecord
  2
CENTER
 70
     0
  3
Center ____ _ ____ _ ____ _ ____ _ ____ _ ____
 72
    65
 73
     4
 40
10.16
 49
6.35
 74
     0
 49
-1.27
 74
     0
 49
1.27
 74
     0
 49
-1.27
 74
     0
  0
LTYPE
  5
71
330
5
100
AcDbSymbolTableRecord
100
AcDbLinetypeTableRecord
  2
CENTERX2
 70
     0
  3
Center (2x) ________  __  ________  __  _____
 72
    65
 73
     4
 40
20.32
 49
12.7
 74
     0
 49
-2.54
 74
     0
 49
2.54
 74
     0
 49
-2.54
 74
     0
  0
LTYPE
  5
72
330
5
100
AcDbSymbolTableRecord
100
AcDbLinetypeTableRecord
  2
DOT2
 70
     0
  3
Dot (.5x) ........................................
 72
    65
 73
     2
 40
0.635
 49
0.0
 74
     0
 49
-0.635
 74
     0
  0
ENDTAB
  0
TABLE
  2
LAYER
  5
2
330
0
100
AcDbSymbolTable
 70
    17
  0
LAYER
  5
10
330
2
100
AcDbSymbolTableRecord
100
AcDbLayerTableRecord
  2
0
 70
     0
 62
     7
  6
Continuous
370
    -3
390
F
  0
LAYER
  5
73
330
2
100
AcDbSymbolTableRecord
100
AcDbLayerTableRecord
  2
FORMAT
 70
     0
 62
     7
  6
Continuous
370
    -3
390
F
  0
LAYER
  5
74
330
2
100
AcDbSymbolTableRecord
100
AcDbLayerTableRecord
  2
YARDIMCI_GEOMETRI
 70
     0
 62
    -6
  6
Continuous
290
     0
370
    -3
390
F
  0
LAYER
  5
75
330
2
100
AcDbSymbolTableRecord
100
AcDbLayerTableRecord
  2
SAYFA_CERCEVESI
 70
     0
 62
     7
  6
Continuous
370
    25
390
F
  0
LAYER
  5
76
330
2
100
AcDbSymbolTableRecord
100
AcDbLayerTableRecord
  2
ANTET
 70
     0
 62
     7
  6
Continuous
370
    -3
390
F
  0
LAYER
  5
77
330
2
100
AcDbSymbolTableRecord
100
AcDbLayerTableRecord
  2
OLCU
 70
     0
 62
   150
  6
Continuous
370
    -3
390
F
  0
LAYER
  5
78
330
2
100
AcDbSymbolTableRecord
100
AcDbLayerTableRecord
  2
METIN
 70
     0
 62
    96
  6
Continuous
370
    -3
390
F
  0
LAYER
  5
79
330
2
100
AcDbSymbolTableRecord
100
AcDbLayerTableRecord
  2
BALON
 70
     0
 62
     5
  6
Continuous
370
    -3
390
F
  0
LAYER
  5
7A
330
2
100
AcDbSymbolTableRecord
100
AcDbLayerTableRecord
  2
VURGU
 70
     0
 62
     7
  6
Continuous
370
    -3
390
F
  0
LAYER
  5
7B
330
2
100
AcDbSymbolTableRecord
100
AcDbLayerTableRecord
  2
SILIK
 70
     0
 62
     7
  6
Continuous
370
    -3
390
F
  0
LAYER
  5
7C
330
2
100
AcDbSymbolTableRecord
100
AcDbLayerTableRecord
  2
MODEL
 70
     0
 62
     7
  6
Continuous
370
    -3
390
F
  0
LAYER
  5
7D
330
2
100
AcDbSymbolTableRecord
100
AcDbLayerTableRecord
  2
DETAYLANDıRMA
 70
     0
 62
   190
  6
Continuous
370
    -3
390
F
  0
LAYER
  5
7E
330
2
100
AcDbSymbolTableRecord
100
AcDbLayerTableRecord
  2
TOLERANS
 70
     0
 62
   230
  6
Continuous
370
    -3
390
F
  0
LAYER
  5
7F
330
2
100
AcDbSymbolTableRecord
100
AcDbLayerTableRecord
  2
MERKEZ_CIZGILERI
 70
     0
 62
    30
  6
Continuous
370
    -3
390
F
  0
LAYER
  5
80
330
2
100
AcDbSymbolTableRecord
100
AcDbLayerTableRecord
  2
KESIT-DETAY_CIZGILERI
 70
     0
 62
     7
  6
Continuous
370
    -3
390
F
  0
LAYER
  5
81
330
2
100
AcDbSymbolTableRecord
100
AcDbLayerTableRecord
  2
\U+041E\U+0421\U+0415\U+0412\U+042B\U+0415
 70
     0
 62
     7
  6
Continuous
370
    -3
390
F
  0
LAYER
  5
82
330
2
100
AcDbSymbolTableRecord
100
AcDbLayerTableRecord
  2
\U+0412\U+041E\U+0414\U+042F\U+041D\U+042B\U+0415_\U+0417\U+041D\U+0410\U+041A\U+0418
 70
     0
 62
    11
  6
Continuous
370
    -3
390
F
  0
ENDTAB
  0
TABLE
  2
STYLE
  5
3
330
0
100
AcDbSymbolTable
 70
     1
  0
STYLE
  5
11
330
3
100
AcDbSymbolTableRecord
100
AcDbTextStyleTableRecord
  2
Standard
 70
     0
 40
0.0
 41
1.0
 50
0.0
 71
     0
 42
3.5
  3
txt
  4

  0
ENDTAB
  0
TABLE
  2
VIEW
  5
6
330
0
100
AcDbSymbolTable
 70
     0
  0
ENDTAB
  0
TABLE
  2
UCS
  5
7
330
0
100
AcDbSymbolTable
 70
     0
  0
ENDTAB
  0
TABLE
  2
APPID
  5
9
330
0
100
AcDbSymbolTable
 70
     1
  0
APPID
  5
12
330
9
100
AcDbSymbolTableRecord
100
AcDbRegAppTableRecord
  2
ACAD
 70
     0
  0
ENDTAB
  0
TABLE
  2
DIMSTYLE
  5
A
330
0
100
AcDbSymbolTable
 70
     1
100
AcDbDimStyleTable
  0
DIMSTYLE
105
27
330
A
100
AcDbSymbolTableRecord
100
AcDbDimStyleTableRecord
  2
ISO-25
 70
     0
 41
2.5
 42
0.625
 43
3.75
 44
1.25
 73
     0
 74
     0
 77
     1
 78
     8
140
2.5
141
2.5
143
0.0393700787
147
0.625
171
     3
172
     1
178
     0
271
     2
272
     2
274
     3
278
    44
283
     0
284
     8
340
11
  0
ENDTAB
  0
TABLE
  2
BLOCK_RECORD
  5
1
330
0
100
AcDbSymbolTable
 70
     2
  0
BLOCK_RECORD
  5
1F
330
1
100
AcDbSymbolTableRecord
100
AcDbBlockTableRecord
  2
*Model_Space
340
22
  0
BLOCK_RECORD
  5
1B
330
1
100
AcDbSymbolTableRecord
100
AcDbBlockTableRecord
  2
*Paper_Space
340
1E
  0
BLOCK_RECORD
  5
23
330
1
100
AcDbSymbolTableRecord
100
AcDbBlockTableRecord
  2
*Paper_Space0
340
26
  0
BLOCK_RECORD
  5
85
330
1
100
AcDbSymbolTableRecord
100
AcDbBlockTableRecord
  2
SW_CENTERMARKSYMBOL_0
340
0
102
{BLKREFS
331
90
102
}
  0
ENDTAB
  0
ENDSEC
  0
SECTION
  2
BLOCKS
  0
BLOCK
  5
20
330
1F
100
AcDbEntity
  8
0
100
AcDbBlockBegin
  2
*Model_Space
 70
     0
 10
0.0
 20
0.0
 30
0.0
  3
*Model_Space
  1

  0
ENDBLK
  5
21
330
1F
100
AcDbEntity
  8
0
100
AcDbBlockEnd
  0
BLOCK
  5
1C
330
1B
100
AcDbEntity
 67
     1
  8
0
100
AcDbBlockBegin
  2
*Paper_Space
 70
     0
 10
0.0
 20
0.0
 30
0.0
  3
*Paper_Space
  1

  0
ENDBLK
  5
1D
330
1B
100
AcDbEntity
 67
     1
  8
0
100
AcDbBlockEnd
  0
BLOCK
  5
24
330
23
100
AcDbEntity
  8
0
100
AcDbBlockBegin
  2
*Paper_Space0
 70
     0
 10
0.0
 20
0.0
 30
0.0
  3
*Paper_Space0
  1

  0
ENDBLK
  5
25
330
23
100
AcDbEntity
  8
0
100
AcDbBlockEnd
  0
BLOCK
  5
86
330
85
100
AcDbEntity
  8
0
100
AcDbBlockBegin
  2
SW_CENTERMARKSYMBOL_0
 70
     0
 10
0.0
 20
0.0
 30
0.0
  3
SW_CENTERMARKSYMBOL_0
  1

  0
LINE
  5
88
330
85
100
AcDbEntity
  8
FORMAT
 62
     0
100
AcDbLine
 10
0.0
 20
0.0
 30
0.0
 11
0.0
 21
2.5
 31
0.0
  0
LINE
  5
89
330
85
100
AcDbEntity
  8
FORMAT
 62
     0
100
AcDbLine
 10
0.0
 20
0.0
 30
0.0
 11
-2.5
 21
0.0
 31
0.0
  0
LINE
  5
8A
330
85
100
AcDbEntity
  8
FORMAT
 62
     0
100
AcDbLine
 10
0.0
 20
0.0
 30
0.0
 11
0.0
 21
-2.5
 31
0.0
  0
LINE
  5
8B
330
85
100
AcDbEntity
  8
FORMAT
 62
     0
100
AcDbLine
 10
0.0
 20
0.0
 30
0.0
 11
2.5
 21
0.0
 31
0.0
  0
LINE
  5
8C
330
85
100
AcDbEntity
  8
FORMAT
 62
     0
100
AcDbLine
 10
0.0
 20
5.0
 30
0.0
 11
0.0
 21
115.0
 31
0.0
  0
LINE
  5
8D
330
85
100
AcDbEntity
  8
FORMAT
 62
     0
100
AcDbLine
 10
-5.0
 20
0.0
 30
0.0
 11
-115.0
 21
0.0
 31
0.0
  0
LINE
  5
8E
330
85
100
AcDbEntity
  8
FORMAT
 62
     0
100
AcDbLine
 10
0.0
 20
-5.0
 30
0.0
 11
0.0
 21
-115.0
 31
0.0
  0
LINE
  5
8F
330
85
100
AcDbEntity
  8
FORMAT
 62
     0
100
AcDbLine
 10
5.0
 20
0.0
 30
0.0
 11
115.0
 21
0.0
 31
0.0
  0
ENDBLK
  5
87
330
85
100
AcDbEntity
  8
0
100
AcDbBlockEnd
  0
ENDSEC
  0
SECTION
  2
ENTITIES
  0
CIRCLE
  5
83
330
1F
100
AcDbEntity
  8
0
  6
Continuous
 62
     7
370
    25
100
AcDbCircle
 10
141.4204350607
 20
109.2475748415
 30
0.0
 40
112.5
  0
CIRCLE
  5
84
330
1F
100
AcDbEntity
  8
0
  6
Continuous
 62
     7
370
    25
100
AcDbCircle
 10
141.4204350607
 20
109.2475748415
 30
0.0
 40
99.10000000000002
  0
INSERT
  5
90
330
1F
100
AcDbEntity
  8
FORMAT
 62
     7
100
AcDbBlockReference
  2
SW_CENTERMARKSYMBOL_0
 10
141.4204350607
 20
109.2475748415
 30
0.0
  0
LINE
  5
91
330
1F
100
AcDbEntity
  8
0
  6
Continuous
 62
     7
370
    25
100
AcDbLine
 10
28.9204350607
 20
-65.8026786614
 30
0.0
 11
28.9204350607
 21
-201.3954199935
 31
0.0
  0
LINE
  5
92
330
1F
100
AcDbEntity
  8
0
  6
Continuous
 62
     7
370
    25
100
AcDbLine
 10
253.9204350607
 20
-201.3954199935
 30
0.0
 11
253.9204350607
 21
-65.8026786614
 31
0.0
  0
ARC
  5
93
330
1F
100
AcDbEntity
  8
0
  6
Continuous
 62
     7
370
    25
100
AcDbCircle
 10
137.9708156962
 20
235.1913577303
 30
0.0
 40
450.0
100
AcDbArc
 50
255.9756534413
 51
270.0
  0
ARC
  5
94
330
1F
100
AcDbEntity
  8
0
  6
Continuous
 62
     7
370
    25
100
AcDbCircle
 10
144.8700544251
 20
235.1913577303
 30
0.0
 40
450.0
100
AcDbArc
 50
270.0
 51
284.0243465587
  0
LINE
  5
95
330
1F
100
AcDbEntity
  8
0
  6
Continuous
 62
     7
370
    25
100
AcDbLine
 10
137.9708156962
 20
-214.8086422697
 30
0.0
 11
144.8700544251
 21
-214.8086422697
 31
0.0
  0
LINE
  5
96
330
1F
100
AcDbEntity
  8
0
  6
Continuous
 62
     7
370
    25
100
AcDbLine
 10
141.4204350607
 20
-65.8026786614
 30
0.0
 11
253.9204350607
 21
-65.8026786614
 31
0.0
  0
LINE
  5
97
330
1F
100
AcDbEntity
  8
0
  6
Continuous
 62
     7
370
    25
100
AcDbLine
 10
28.9204350607
 20
-65.8026786614
 30
0.0
 11
141.4204350607
 21
-65.8026786614
 31
0.0
  0
LINE
  5
98
330
1F
100
AcDbEntity
  8
0
  6
Continuous
 62
     7
370
    25
100
AcDbLine
 10
141.4204350607
 20
-201.3954199935
 30
0.0
 11
253.9204350607
 21
-201.3954199935
 31
0.0
  0
LINE
  5
99
330
1F
100
AcDbEntity
  8
0
  6
Continuous
 62
     7
370
    25
100
AcDbLine
 10
28.9204350607
 20
-201.3954199935
 30
0.0
 11
141.4204350607
 21
-201.3954199935
 31
0.0
  0
LINE
  5
9A
330
1F
100
AcDbEntity
  8
0
  6
Continuous
 62
     7
370
    25
100
AcDbLine
 10
253.9204350607
 20
312.5690007282
 30
0.0
 11
253.9204350607
 21
448.1617420603
 31
0.0
  0
LINE
  5
9B
330
1F
100
AcDbEntity
  8
0
  6
Continuous
 62
     7
370
    25
100
AcDbLine
 10
28.9204350607
 20
448.1617420603
 30
0.0
 11
28.9204350607
 21
312.5690007282
 31
0.0
  0
ARC
  5
9C
330
1F
100
AcDbEntity
  8
0
  6
Continuous
 62
     7
370
    25
100
AcDbCircle
 10
144.8700544251
 20
11.5749643365
 30
0.0
 40
450.0
100
AcDbArc
 50
75.9756534413
 51
90.0
  0
ARC
  5
9D
330
1F
100
AcDbEntity
  8
0
  6
Continuous
 62
     7
370
    25
100
AcDbCircle
 10
137.9708156962
 20
11.5749643365
 30
0.0
 40
450.0
100
AcDbArc
 50
90.0
 51
104.0243465587
  0
LINE
  5
9E
330
1F
100
AcDbEntity
  8
0
  6
Continuous
 62
     7
370
    25
100
AcDbLine
 10
144.8700544251
 20
461.5749643365
 30
0.0
 11
137.9708156962
 21
461.5749643365
 31
0.0
  0
LINE
  5
9F
330
1F
100
AcDbEntity
  8
0
  6
Continuous
 62
     7
370
    25
100
AcDbLine
 10
253.9204350607
 20
312.5690007282
 30
0.0
 11
28.9204350607
 21
312.5690007282
 31
0.0
  0
LINE
  5
A0
330
1F
100
AcDbEntity
  8
0
  6
Continuous
 62
     7
370
    25
100
AcDbLine
 10
253.9204350607
 20
448.1617420603
 30
0.0
 11
28.9204350607
 21
448.1617420603
 31
0.0
  0
LINE
  5
A1
330
1F
100
AcDbEntity
  8
0
  6
Continuous
 62
     7
370
    25
100
AcDbLine
 10
469.3257941644
 20
221.7475748415
 30
0.0
 11
333.7330528323
 21
221.7475748415
 31
0.0
  0
LINE
  5
A2
330
1F
100
AcDbEntity
  8
0
  6
Continuous
 62
     7
370
    25
100
AcDbLine
 10
333.7330528323
 20
-3.2524251585
 30
0.0
 11
469.3257941644
 21
-3.2524251585
 31
0.0
  0
ARC
  5
A3
330
1F
100
AcDbEntity
  8
0
  6
Continuous
 62
     7
370
    25
100
AcDbCircle
 10
770.3198305561
 20
112.6971942059
 30
0.0
 40
449.9999999999999
100
AcDbArc
 50
165.9756534413
 51
180.0
  0
ARC
  5
A4
330
1F
100
AcDbEntity
  8
0
  6
Continuous
 62
     7
370
    25
100
AcDbCircle
 10
770.3198305561
 20
105.797955477
 30
0.0
 40
449.9999999999999
100
AcDbArc
 50
180.0
 51
194.0243465587
  0
LINE
  5
A5
330
1F
100
AcDbEntity
  8
0
  6
Continuous
 62
     7
370
    25
100
AcDbLine
 10
320.3198305561
 20
112.6971942059
 30
0.0
 11
320.3198305561
 21
105.797955477
 31
0.0
  0
LINE
  5
A6
330
1F
100
AcDbEntity
  8
0
  6
Continuous
 62
     7
370
    25
100
AcDbLine
 10
469.3257941644
 20
221.7475748415
 30
0.0
 11
469.3257941644
 21
-3.2524251585
 31
0.0
  0
LINE
  5
A7
330
1F
100
AcDbEntity
  8
0
  6
Continuous
 62
     7
370
    25
100
AcDbLine
 10
333.7330528323
 20
221.7475748415
 30
0.0
 11
333.7330528323
 21
-3.2524251585
 31
0.0
  0
LINE
  5
A8
330
1F
100
AcDbEntity
  8
0
  6
Continuous
 62
     7
370
    25
100
AcDbLine
 10
-223.1343630641
 20
-3.2524251585
 30
0.0
 11
-87.541621732
 21
-3.2524251585
 31
0.0
  0
LINE
  5
A9
330
1F
100
AcDbEntity
  8
0
  6
Continuous
 62
     7
370
    25
100
AcDbLine
 10
-87.541621732
 20
221.7475748415
 30
0.0
 11
-223.1343630641
 21
221.7475748415
 31
0.0
  0
ARC
  5
AA
330
1F
100
AcDbEntity
  8
0
  6
Continuous
 62
     7
370
    25
100
AcDbCircle
 10
-524.1283994558
 20
105.797955477
 30
0.0
 40
450.0
100
AcDbArc
 50
345.9756534413
 51
0.0
  0
ARC
  5
AB
330
1F
100
AcDbEntity
  8
0
  6
Continuous
 62
     7
370
    25
100
AcDbCircle
 10
-524.1283994558
 20
112.6971942059
 30
0.0
 40
450.0
100
AcDbArc
 50
0.0
 51
14.0243465587
  0
LINE
  5
AC
330
1F
100
AcDbEntity
  8
0
  6
Continuous
 62
     7
370
    25
100
AcDbLine
 10
-74.1283994558
 20
105.797955477
 30
0.0
 11
-74.1283994558
 21
112.6971942059
 31
0.0
  0
LINE
  5
AD
330
1F
100
AcDbEntity
  8
0
  6
Continuous
 62
     7
370
    25
100
AcDbLine
 10
-223.1343630641
 20
-3.2524251585
 30
0.0
 11
-223.1343630641
 21
221.7475748415
 31
0.0
  0
LINE
  5
AE
330
1F
100
AcDbEntity
  8
0
  6
Continuous
 62
     7
370
    25
100
AcDbLine
 10
-87.541621732
 20
-3.2524251585
 30
0.0
 11
-87.541621732
 21
221.7475748415
 31
0.0
  0
LINE
  5
AF
330
1F
100
AcDbEntity
  8
0
  6
Continuous
 62
     7
370
    25
100
AcDbLine
 10
331.3163379981
 20
-254.078198271
 30
0.0
 11
427.1948848737
 21
-309.4277052349
 31
0.0
  0
LINE
  5
B0
330
1F
100
AcDbEntity
  8
0
  6
Continuous
 62
     7
370
    25
100
AcDbLine
 10
539.6857422952
 20
-114.5667111993
 30
0.0
 11
443.8071954196
 21
-59.2172042353
 31
0.0
  0
LWPOLYLINE
  5
B1
330
1F
100
AcDbEntity
  8
0
  6
Continuous
 62
     7
370
    25
100
AcDbPolyline
 90
      137
 70
   128
 43
0.0
 10
387.5617667088
 20
-248.5085425903
 10
391.2356383474
 20
-246.2896438052
 10
394.9016697587
 20
-243.8794445972
 10
398.552037447
 20
-241.2830884528
 10
402.1789513437
 20
-238.5061161269
 10
405.7746714318
 20
-235.5544538184
 10
409.3315242633
 20
-232.4344005234
 10
412.8419193351
 20
-229.1526145928
 10
416.2983652873
 20
-225.7160995233
 10
419.6934858898
 20
-222.1321890112
 10
423.0200357844
 20
-218.4085313021
 10
426.2709159458
 20
-214.5530728692
 10
429.4391888319
 20
-210.5740414551
 10
432.5180931889
 20
-206.4799285134
 10
435.5010584795
 20
-202.2794710874
 10
438.3817189056
 20
-197.9816331649
 10
441.1539269927
 20
-193.5955865488
 10
443.8117667088
 20
-189.1306912834
 10
446.3495660903
 20
-184.5964756803
 10
448.7619093453
 20
-180.002615984
 10
451.0436484116
 20
-175.3589157228
 10
453.1899139432
 20
-170.6752847869
 10
455.1961257013
 20
-165.9617182809
 10
457.0580023289
 20
-161.2282751931
 10
458.7715704873
 20
-156.4850569297
 10
460.3331733359
 20
-151.7421857575
 10
461.7394783353
 20
-147.0097832026
 10
462.98748436
 20
-142.2979484504
 10
464.0745281021
 20
-137.616736794
 10
464.9982897555
 20
-132.9761381747
 10
465.7567979663
 20
-128.386055864
 10
466.3484340397
 20
-123.8562853289
 10
466.7719353946
 20
-119.3964933278
 10
467.0263982576
 20
-115.0161972817
 10
467.1112795923
 20
-110.7247449631
 10
467.0263982576
 20
-106.5312945476
 10
466.7719353946
 20
-102.4447950696
 10
466.3484340397
 20
-98.4739673249
 10
465.7567979663
 20
-94.6272852602
 10
464.9982897555
 20
-90.9129578887
 10
464.0745281021
 20
-87.3389117723
 10
462.98748436
 20
-83.9127741054
 10
461.7394783353
 20
-80.6418564386
 10
460.3331733359
 20
-77.5331390749
 10
458.7715704873
 20
-74.593256174
 10
457.0580023289
 20
-71.828481594
 10
455.1961257013
 20
-69.2447155032
 10
453.1899139432
 20
-66.8474717887
 10
451.0436484116
 20
-64.6418662894
 10
448.7619093453
 20
-62.6326058786
 10
446.3495660903
 20
-60.8239784192
 10
443.8117667088
 20
-59.2198436134
 10
441.1539269927
 20
-57.8236247657
 10
438.3817189056
 20
-56.6383014775
 10
435.5010584795
 20
-55.6664032884
 10
432.5180931889
 20
-54.9100042781
 10
429.4391888319
 20
-54.3707186403
 10
426.2709159458
 20
-54.0496972377
 10
423.0200357844
 20
-53.9476251461
 10
419.6934858898
 20
-54.0647201924
 10
416.2983652873
 20
-54.4007324901
 10
412.8419193351
 20
-54.9549449719
 10
409.3315242633
 20
-55.7261749204
 10
405.7746714318
 20
-56.7127764921
 10
402.1789513437
 20
-57.9126442294
 10
398.552037447
 20
-59.3232175542
 10
394.9016697587
 20
-60.941486232
 10
391.2356383474
 20
-62.7639967957
 10
387.5617667088
 20
-64.786859916
 10
383.8878950703
 20
-67.0057587011
 10
380.221863659
 20
-69.4159579091
 10
376.5714959707
 20
-72.0123140535
 10
372.944582074
 20
-74.7892863794
 10
369.3488619859
 20
-77.7409486879
 10
365.7920091544
 20
-80.861001983
 10
362.2816140826
 20
-84.1427879135
 10
358.8251681304
 20
-87.579302983
 10
355.4300475279
 20
-91.1632134952
 10
352.1034976333
 20
-94.8868712043
 10
348.8526174719
 20
-98.7423296372
 10
345.6843445858
 20
-102.7213610513
 10
342.6054402288
 20
-106.815473993
 10
339.6224749382
 20
-111.015931419
 10
336.7418145121
 20
-115.3137693414
 10
333.969606425
 20
-119.6998159576
 10
331.3117667088
 20
-124.164711223
 10
328.7739673274
 20
-128.6989268261
 10
326.3616240724
 20
-133.2927865223
 10
324.0798850061
 20
-137.9364867835
 10
321.9336194744
 20
-142.6201177194
 10
319.9274077164
 20
-147.3336842255
 10
318.0655310888
 20
-152.0671273132
 10
316.3519629304
 20
-156.8103455766
 10
314.7903600818
 20
-161.5532167489
 10
313.3840550823
 20
-166.2856193038
 10
312.1360490577
 20
-170.9974540559
 10
311.0490053156
 20
-175.6786657124
 10
310.1252436622
 20
-180.3192643316
 10
309.3667354514
 20
-184.9093466423
 10
308.775099378
 20
-189.4391171775
 10
308.3515980231
 20
-193.8989091786
 10
308.0971351601
 20
-198.2792052246
 10
308.0122538254
 20
-202.5706575432
 10
308.0971351601
 20
-206.7641079587
 10
308.3515980231
 20
-210.8506074368
 10
308.775099378
 20
-214.8214351814
 10
309.3667354514
 20
-218.6681172462
 10
310.1252436622
 20
-222.3824446176
 10
311.0490053156
 20
-225.9564907341
 10
312.1360490577
 20
-229.3826284009
 10
313.3840550824
 20
-232.6535460678
 10
314.7903600818
 20
-235.7622634314
 10
316.3519629304
 20
-238.7021463324
 10
318.0655310888
 20
-241.4669209124
 10
319.9274077164
 20
-244.0506870032
 10
321.9336194744
 20
-246.4479307177
 10
324.0798850061
 20
-248.653536217
 10
326.3616240724
 20
-250.6627966278
 10
328.7739673274
 20
-252.4714240872
 10
331.3117667088
 20
-254.075558893
 10
333.969606425
 20
-255.4717777407
 10
336.7418145121
 20
-256.6571010289
 10
339.6224749382
 20
-257.628999218
 10
342.6054402288
 20
-258.3853982282
 10
345.6843445858
 20
-258.924683866
 10
348.8526174719
 20
-259.2457052687
 10
352.1034976333
 20
-259.3477773603
 10
355.4300475279
 20
-259.2306823139
 10
358.8251681304
 20
-258.8946700162
 10
362.2816140826
 20
-258.3404575345
 10
365.7920091544
 20
-257.5692275859
 10
369.3488619859
 20
-256.5826260143
 10
372.944582074
 20
-255.3827582769
 10
376.5714959707
 20
-253.9721849521
 10
380.221863659
 20
-252.3539162744
 10
383.8878950703
 20
-250.5314057106
 10
387.5617667088
 20
-248.5085425903
  0
LWPOLYLINE
  5
B2
330
1F
100
AcDbEntity
  8
0
  6
Continuous
 62
     7
370
    25
100
AcDbPolyline
 90
       53
 70
   128
 43
0.0
 10
483.4403135845
 20
-303.8580495542
 10
487.114185223
 20
-301.6391507691
 10
490.7802166343
 20
-299.2289515611
 10
494.4305843226
 20
-296.6325954167
 10
498.0574982193
 20
-293.8556230908
 10
501.6532183074
 20
-290.9039607823
 10
505.2100711389
 20
-287.7839074873
 10
508.7204662107
 20
-284.5021215568
 10
512.1769121629
 20
-281.0656064872
 10
515.5720327654
 20
-277.4816959751
 10
518.89858266
 20
-273.758038266
 10
522.1494628214
 20
-269.9025798331
 10
525.3177357075
 20
-265.923548419
 10
528.3966400645
 20
-261.8294354773
 10
531.3796053551
 20
-257.6289780513
 10
534.2602657812
 20
-253.3311401288
 10
537.0324738683
 20
-248.9450935127
 10
539.6903135845
 20
-244.4801982473
 10
542.2281129659
 20
-239.9459826442
 10
544.6404562209
 20
-235.3521229479
 10
546.9221952872
 20
-230.7084226867
 10
549.0684608189
 20
-226.0247917508
 10
551.0746725769
 20
-221.3112252448
 10
552.9365492045
 20
-216.577782157
 10
554.6501173629
 20
-211.8345638936
 10
556.2117202115
 20
-207.0916927214
 10
557.6180252109
 20
-202.3592901665
 10
558.8660312356
 20
-197.6474554144
 10
559.9530749777
 20
-192.9662437579
 10
560.8768366311
 20
-188.3256451386
 10
561.6353448419
 20
-183.7355628279
 10
562.2269809153
 20
-179.2057922928
 10
562.6504822702
 20
-174.7460002917
 10
562.9049451332
 20
-170.3657042456
 10
562.9898264679
 20
-166.0742519271
 10
562.9049451332
 20
-161.8808015115
 10
562.6504822702
 20
-157.7943020335
 10
562.2269809153
 20
-153.8234742889
 10
561.6353448419
 20
-149.9767922241
 10
560.8768366311
 20
-146.2624648526
 10
559.9530749777
 20
-142.6884187362
 10
558.8660312356
 20
-139.2622810693
 10
557.6180252109
 20
-135.9913634025
 10
556.2117202115
 20
-132.8826460388
 10
554.6501173629
 20
-129.9427631379
 10
552.9365492045
 20
-127.1779885579
 10
551.0746725769
 20
-124.5942224671
 10
549.0684608189
 20
-122.1969787526
 10
546.9221952872
 20
-119.9913732533
 10
544.6404562209
 20
-117.9821128425
 10
542.2281129659
 20
-116.1734853831
 10
539.6903135845
 20
-114.5693505773
 10
539.6857422952
 20
-114.5667111993
  0
LWPOLYLINE
  5
B3
330
1F
100
AcDbEntity
  8
0
  6
Continuous
 62
     7
370
    25
100
AcDbPolyline
 90
       18
 70
   128
 43
0.0
 10
427.1948848737
 20
-309.4277052349
 10
429.8481533006
 20
-310.8212847046
 10
432.6203613877
 20
-312.0066079928
 10
435.5010218138
 20
-312.9785061819
 10
438.4839871044
 20
-313.7349051921
 10
441.5628914614
 20
-314.2741908299
 10
444.7311643475
 20
-314.5952122326
 10
447.9820445089
 20
-314.6972843242
 10
451.3085944035
 20
-314.5801892778
 10
454.703715006
 20
-314.2441769801
 10
458.1601609582
 20
-313.6899644984
 10
461.67055603
 20
-312.9187345499
 10
465.2274088615
 20
-311.9321329782
 10
468.8231289496
 20
-310.7322652408
 10
472.4500428463
 20
-309.321691916
 10
476.1004105346
 20
-307.7034232383
 10
479.7664419459
 20
-305.8809126746
 10
483.4403135845
 20
-303.8580495542
  0
LWPOLYLINE
  5
B4
330
1F
100
AcDbEntity
  8
0
  6
Continuous
 62
     7
370
    25
100
AcDbPolyline
 90
      128
 70
   128
 43
0.0
 10
387.5617667088
 20
-237.566895711
 10
391.0272006254
 20
-235.4673318797
 10
394.4841540445
 20
-233.1748832042
 10
397.9241672218
 20
-230.6951596908
 10
401.3388218686
 20
-228.0342296383
 10
404.7197617527
 20
-225.1986047885
 10
408.0587131478
 20
-222.1952243905
 10
411.3475050803
 20
-219.0314382196
 10
414.5780893252
 20
-215.7149885906
 10
417.7425601014
 20
-212.2539914114
 10
420.8331734188
 20
-208.6569163223
 10
423.8423660286
 20
-204.9325659685
 10
426.7627739323
 20
-201.0900544597
 10
429.5872504023
 20
-197.1387850653
 10
432.3088834715
 20
-193.0884272036
 10
434.9210128476
 20
-188.9488927792
 10
437.4172462124
 20
-184.7303119263
 10
439.7914748644
 20
-180.4430082192
 10
442.0378886684
 20
-176.0974734086
 10
444.1509902733
 20
-171.7043417463
 10
446.1256085654
 20
-167.2743639616
 10
447.9569113229
 20
-162.8183809526
 10
449.6404170409
 20
-158.3472972563
 10
451.172005899
 20
-153.8720543638
 10
452.5479298426
 20
-149.4036039443
 10
453.7648217551
 20
-144.9528810449
 10
454.8197036982
 20
-140.5307773302
 10
455.709994199
 20
-136.1481144291
 10
456.4335145674
 20
-131.8156174521
 10
456.9884942278
 20
-127.5438887454
 10
457.3735750521
 20
-123.3433819448
 10
457.5878146828
 20
-119.2243763944
 10
457.6306888399
 20
-115.196951991
 10
457.5020926029
 20
-111.270964517
 10
457.2023406684
 20
-107.4560215216
 10
456.7321665797
 20
-103.7614588097
 10
456.0927209315
 20
-100.1963175953
 10
455.2855685545
 20
-96.7693223763
 10
454.3126846859
 20
-93.4888595844
 10
453.1764501353
 20
-90.3629570616
 10
451.8796454593
 20
-87.3992644153
 10
450.4254441562
 20
-84.605034298
 10
448.8174049001
 20
-81.987104659
 10
447.0594628327
 20
-79.5518820109
 10
445.1559199328
 20
-77.3053257515
 10
443.1114344888
 20
-75.2529335806
 10
440.9310096992
 20
-73.3997280455
 10
438.6199814289
 20
-71.7502442509
 10
436.1840051512
 20
-70.3085187599
 10
433.6290421083
 20
-69.0780797165
 10
430.961344723
 20
-68.0619382112
 10
428.1874412978
 20
-67.2625809124
 10
425.3141200391
 20
-66.6819639816
 10
422.3484124456
 20
-66.3215082855
 10
419.2975761008
 20
-66.1820959197
 10
416.1690769123
 20
-66.2640680497
 10
412.9705708421
 20
-66.5672240758
 10
409.7098851703
 20
-67.0908221244
 10
406.3949993412
 20
-67.8335808635
 10
403.034025436
 20
-68.7936826379
 10
399.635188321
 20
-69.9687779177
 10
396.2068055201
 20
-71.3559910477
 10
392.7572668606
 20
-72.9519272851
 10
389.2950139416
 20
-74.7526811065
 10
385.8285194761
 20
-76.7538457654
 10
382.3662665571
 20
-78.9505240766
 10
378.9167278976
 20
-81.3373404002
 10
375.4883450967
 20
-83.9084537967
 10
372.0895079817
 20
-86.6575723207
 10
368.7285340765
 20
-89.5779684185
 10
365.4136482474
 20
-92.6624953916
 10
362.1529625756
 20
-95.9036048856
 10
358.9544565053
 20
-99.2933653623
 10
355.8259573169
 20
-102.8234815099
 10
352.775120972
 20
-106.4853145426
 10
349.8094133786
 20
-110.2699033413
 10
346.9360921199
 20
-114.1679863832
 10
344.1621886947
 20
-118.1700244057
 10
341.4944913094
 20
-122.2662237513
 10
338.9395282665
 20
-126.4465603336
 10
336.5035519888
 20
-130.7008041686
 10
334.1925237185
 20
-135.0185444088
 10
332.0120989289
 20
-139.3892148202
 10
329.9676134849
 20
-143.8021196399
 10
328.064070585
 20
-148.2464597503
 10
326.3061285176
 20
-152.7113591066
 10
324.6980892615
 20
-157.1858913517
 10
323.2438879584
 20
-161.6591065554
 10
321.9470832824
 20
-166.1200580106
 10
320.8108487318
 20
-170.5578290215
 10
319.8379648631
 20
-174.9615596188
 10
319.0308124861
 20
-179.3204731358
 10
318.391366838
 20
-183.6239025807
 10
317.9211927493
 20
-187.8613167405
 10
317.6214408148
 20
-192.0223459528
 10
317.4928445778
 20
-196.0968074816
 10
317.5357187348
 20
-200.074730437
 10
317.7499583656
 20
-203.9463801748
 10
318.1350391899
 20
-207.7022821194
 10
318.6900188503
 20
-211.3332449493
 10
319.4135392187
 20
-214.83038309
 10
320.3038297195
 20
-218.1851384586
 10
321.3587116626
 20
-221.3893014064
 10
322.5756035751
 20
-224.4350308097
 10
323.9515275186
 20
-227.3148732584
 10
325.4831163768
 20
-230.0217812954
 10
327.1666220948
 20
-232.5491306632
 10
328.9979248523
 20
-234.8907365142
 10
330.9725431444
 20
-237.0408685467
 10
333.0856447493
 20
-238.9942650272
 10
335.3320585533
 20
-240.7461456673
 10
337.7062872053
 20
-242.2922233213
 10
340.2025205701
 20
-243.6287144783
 10
342.8146499462
 20
-244.7523485203
 10
345.5362830154
 20
-245.6603757267
 10
348.3607594854
 20
-246.3505740026
 10
351.2811673891
 20
-246.8212543173
 10
354.2903599989
 20
-247.0712648371
 10
357.3809733163
 20
-247.0999937445
 10
360.5454440925
 20
-246.9073707348
 10
363.7760283374
 20
-246.4938671891
 10
367.0648202699
 20
-245.8604950196
 10
370.403771665
 20
-245.0088041942
 10
373.7847115491
 20
-243.9408789431
 10
377.1993661959
 20
-242.6593326584
 10
380.6393793732
 20
-241.1673014986
 10
384.0963327923
 20
-239.4684367138
 10
387.5617667088
 20
-237.566895711
  0
ARC
  5
B5
330
1F
100
AcDbEntity
  8
0
  6
Continuous
 62
     7
370
    25
100
AcDbCircle
 10
568.6691959817
 20
-261.1987947398
 30
0.0
 40
164.322482487674
100
AcDbArc
 50
134.1713161763
 51
165.8340603564
  0
ENDSEC
  0
SECTION
  2
OBJECTS
  0
DICTIONARY
  5
C
330
0
100
AcDbDictionary
281
     1
  3
ACAD_GROUP
350
D
  3
ACAD_LAYOUT
350
1A
  3
ACAD_MLINESTYLE
350
17
  3
ACAD_PLOTSETTINGS
350
19
  3
ACAD_PLOTSTYLENAME
350
E
  3
ACAD_SCALELIST
350
47
  3
DWGPROPS
350
B6
  0
DICTIONARY
  5
D
102
{ACAD_REACTORS
330
C
102
}
330
C
100
AcDbDictionary
281
     1
  0
DICTIONARY
  5
1A
102
{ACAD_REACTORS
330
C
102
}
330
C
100
AcDbDictionary
281
     1
  3
Layout1
350
1E
  3
Layout2
350
26
  3
Model
350
22
  0
DICTIONARY
  5
17
102
{ACAD_REACTORS
330
C
102
}
330
C
100
AcDbDictionary
281
     1
  3
Standard
350
18
  0
DICTIONARY
  5
19
102
{ACAD_REACTORS
330
C
102
}
330
C
100
AcDbDictionary
281
     1
  0
ACDBDICTIONARYWDFLT
  5
E
102
{ACAD_REACTORS
330
C
102
}
330
C
100
AcDbDictionary
281
     1
  3
Normal
350
F
100
AcDbDictionaryWithDefault
340
F
  0
DICTIONARY
  5
47
102
{ACAD_REACTORS
330
C
102
}
330
C
100
AcDbDictionary
281
     1
  3
A0
350
48
  3
A1
350
49
  3
A2
350
4A
  3
A3
350
4B
  3
A4
350
4C
  3
A5
350
4D
  3
A6
350
4E
  3
A7
350
4F
  3
A8
350
50
  3
A9
350
51
  3
B0
350
52
  3
B1
350
53
  3
B2
350
54
  3
B3
350
55
  3
B4
350
56
  3
B5
350
57
  3
B6
350
58
  3
B7
350
59
  3
B8
350
5A
  3
B9
350
5B
  3
C0
350
5C
  3
C1
350
5D
  3
C2
350
5E
  3
C3
350
5F
  3
C4
350
60
  3
C5
350
61
  3
C6
350
62
  3
C7
350
63
  3
C8
350
64
  3
C9
350
65
  3
D0
350
66
  3
D1
350
67
  3
D2
350
68
  0
XRECORD
  5
B6
102
{ACAD_REACTORS
330
C
102
}
330
C
100
AcDbXrecord
280
     1
  1
DWGPROPS COOKIE
  2

  3

  4

  6

  7

  8
b.kav
  9

300
=
301
=
302
=
303
=
304
=
305
=
306
=
307
=
308
=
309
=
 40
0.0
 41
2460704.335240706
 42
2460704.335240856
  1

 90
        0
  0
LAYOUT
  5
1E
102
{ACAD_REACTORS
330
1A
102
}
330
1A
100
AcDbPlotSettings
  1

  2
none_device
  4

  6

 40
0.0
 41
0.0
 42
0.0
 43
0.0
 44
0.0
 45
0.0
 46
0.0
 47
0.0
 48
0.0
 49
0.0
140
0.0
141
0.0
142
1.0
143
1.0
 70
   688
 72
     1
 73
     0
 74
     5
  7

 75
    16
147
1.0
148
0.0
149
0.0
100
AcDbLayout
  1
Layout1
 70
     1
 71
     1
 10
0.0
 20
0.0
 11
420.0
 21
297.0
 12
0.0
 22
0.0
 32
0.0
 14
1.0000000000E+20
 24
1.0000000000E+20
 34
1.0000000000E+20
 15
-1.0000000000E+20
 25
-1.0000000000E+20
 35
-1.0000000000E+20
146
0.0
 13
0.0
 23
0.0
 33
0.0
 16
1.0
 26
0.0
 36
0.0
 17
0.0
 27
1.0
 37
0.0
 76
     0
330
1B
  0
LAYOUT
  5
26
102
{ACAD_REACTORS
330
1A
102
}
330
1A
100
AcDbPlotSettings
  1

  2
none_device
  4

  6

 40
0.0
 41
0.0
 42
0.0
 43
0.0
 44
0.0
 45
0.0
 46
0.0
 47
0.0
 48
0.0
 49
0.0
140
0.0
141
0.0
142
1.0
143
1.0
 70
   688
 72
     1
 73
     0
 74
     5
  7

 75
    16
147
1.0
148
0.0
149
0.0
100
AcDbLayout
  1
Layout2
 70
     1
 71
     2
 10
0.0
 20
0.0
 11
0.0
 21
0.0
 12
0.0
 22
0.0
 32
0.0
 14
0.0
 24
0.0
 34
0.0
 15
0.0
 25
0.0
 35
0.0
146
0.0
 13
0.0
 23
0.0
 33
0.0
 16
1.0
 26
0.0
 36
0.0
 17
0.0
 27
1.0
 37
0.0
 76
     0
330
23
  0
LAYOUT
  5
22
102
{ACAD_REACTORS
330
1A
102
}
330
1A
100
AcDbPlotSettings
  1

  2
none_device
  4
Letter_(8.50_x_11.00_Inches)
  6

 40
6.35
 41
6.35
 42
6.35000508
 43
6.35000508
 44
215.9
 45
279.4
 46
0.0
 47
0.0
 48
0.0
 49
0.0
140
0.0
141
0.0
142
1.0
143
1.0
 70
  1712
 72
     1
 73
     0
 74
     0
  7

 75
     0
147
1.0
148
0.0
149
0.0
100
AcDbLayout
  1
Model
 70
     1
 71
     0
 10
0.0
 20
0.0
 11
279.4
 21
215.9
 12
0.0
 22
0.0
 32
0.0
 14
0.0
 24
0.0
 34
0.0
 15
279.4
 25
215.9
 35
0.0
146
0.0
 13
0.0
 23
0.0
 33
0.0
 16
1.0
 26
0.0
 36
0.0
 17
0.0
 27
1.0
 37
0.0
 76
     0
330
1F
331
29
  0
MLINESTYLE
  5
18
102
{ACAD_REACTORS
330
17
102
}
330
17
100
AcDbMlineStyle
  2
Standard
 70
     0
  3

 62
   256
 51
90.0
 52
90.0
 71
     2
 49
0.5
 62
   256
  6
BYLAYER
 49
-0.5
 62
   256
  6
BYLAYER
  0
ACDBPLACEHOLDER
  5
F
102
{ACAD_REACTORS
330
E
102
}
330
E
  0
SCALE
  5
48
102
{ACAD_REACTORS
330
47
102
}
330
47
100
AcDbScale
 70
     0
300
1:1
140
1.0
141
1.0
290
     1
  0
SCALE
  5
49
102
{ACAD_REACTORS
330
47
102
}
330
47
100
AcDbScale
 70
     0
300
1:2
140
1.0
141
2.0
290
     0
  0
SCALE
  5
4A
102
{ACAD_REACTORS
330
47
102
}
330
47
100
AcDbScale
 70
     0
300
1:4
140
1.0
141
4.0
290
     0
  0
SCALE
  5
4B
102
{ACAD_REACTORS
330
47
102
}
330
47
100
AcDbScale
 70
     0
300
1:5
140
1.0
141
5.0
290
     0
  0
SCALE
  5
4C
102
{ACAD_REACTORS
330
47
102
}
330
47
100
AcDbScale
 70
     0
300
1:8
140
1.0
141
8.0
290
     0
  0
SCALE
  5
4D
102
{ACAD_REACTORS
330
47
102
}
330
47
100
AcDbScale
 70
     0
300
1:10
140
1.0
141
10.0
290
     0
  0
SCALE
  5
4E
102
{ACAD_REACTORS
330
47
102
}
330
47
100
AcDbScale
 70
     0
300
1:16
140
1.0
141
16.0
290
     0
  0
SCALE
  5
4F
102
{ACAD_REACTORS
330
47
102
}
330
47
100
AcDbScale
 70
     0
300
1:20
140
1.0
141
20.0
290
     0
  0
SCALE
  5
50
102
{ACAD_REACTORS
330
47
102
}
330
47
100
AcDbScale
 70
     0
300
1:30
140
1.0
141
30.0
290
     0
  0
SCALE
  5
51
102
{ACAD_REACTORS
330
47
102
}
330
47
100
AcDbScale
 70
     0
300
1:40
140
1.0
141
40.0
290
     0
  0
SCALE
  5
52
102
{ACAD_REACTORS
330
47
102
}
330
47
100
AcDbScale
 70
     0
300
1:50
140
1.0
141
50.0
290
     0
  0
SCALE
  5
53
102
{ACAD_REACTORS
330
47
102
}
330
47
100
AcDbScale
 70
     0
300
1:100
140
1.0
141
100.0
290
     0
  0
SCALE
  5
54
102
{ACAD_REACTORS
330
47
102
}
330
47
100
AcDbScale
 70
     0
300
2:1
140
2.0
141
1.0
290
     0
  0
SCALE
  5
55
102
{ACAD_REACTORS
330
47
102
}
330
47
100
AcDbScale
 70
     0
300
4:1
140
4.0
141
1.0
290
     0
  0
SCALE
  5
56
102
{ACAD_REACTORS
330
47
102
}
330
47
100
AcDbScale
 70
     0
300
8:1
140
8.0
141
1.0
290
     0
  0
SCALE
  5
57
102
{ACAD_REACTORS
330
47
102
}
330
47
100
AcDbScale
 70
     0
300
10:1
140
10.0
141
1.0
290
     0
  0
SCALE
  5
58
102
{ACAD_REACTORS
330
47
102
}
330
47
100
AcDbScale
 70
     0
300
100:1
140
100.0
141
1.0
290
     0
  0
SCALE
  5
59
102
{ACAD_REACTORS
330
47
102
}
330
47
100
AcDbScale
 70
     0
300
1/128" = 1'-0"
140
0.0078125
141
12.0
290
     0
  0
SCALE
  5
5A
102
{ACAD_REACTORS
330
47
102
}
330
47
100
AcDbScale
 70
     0
300
1/64" = 1'-0"
140
0.015625
141
12.0
290
     0
  0
SCALE
  5
5B
102
{ACAD_REACTORS
330
47
102
}
330
47
100
AcDbScale
 70
     0
300
1/32" = 1'-0"
140
0.03125
141
12.0
290
     0
  0
SCALE
  5
5C
102
{ACAD_REACTORS
330
47
102
}
330
47
100
AcDbScale
 70
     0
300
1/16" = 1'-0"
140
0.0625
141
12.0
290
     0
  0
SCALE
  5
5D
102
{ACAD_REACTORS
330
47
102
}
330
47
100
AcDbScale
 70
     0
300
3/32" = 1'-0"
140
0.09375
141
12.0
290
     0
  0
SCALE
  5
5E
102
{ACAD_REACTORS
330
47
102
}
330
47
100
AcDbScale
 70
     0
300
1/8" = 1'-0"
140
0.125
141
12.0
290
     0
  0
SCALE
  5
5F
102
{ACAD_REACTORS
330
47
102
}
330
47
100
AcDbScale
 70
     0
300
3/16" = 1'-0"
140
0.1875
141
12.0
290
     0
  0
SCALE
  5
60
102
{ACAD_REACTORS
330
47
102
}
330
47
100
AcDbScale
 70
     0
300
1/4" = 1'-0"
140
0.25
141
12.0
290
     0
  0
SCALE
  5
61
102
{ACAD_REACTORS
330
47
102
}
330
47
100
AcDbScale
 70
     0
300
3/8" = 1'-0"
140
0.375
141
12.0
290
     0
  0
SCALE
  5
62
102
{ACAD_REACTORS
330
47
102
}
330
47
100
AcDbScale
 70
     0
300
1/2" = 1'-0"
140
0.5
141
12.0
290
     0
  0
SCALE
  5
63
102
{ACAD_REACTORS
330
47
102
}
330
47
100
AcDbScale
 70
     0
300
3/4" = 1'-0"
140
0.75
141
12.0
290
     0
  0
SCALE
  5
64
102
{ACAD_REACTORS
330
47
102
}
330
47
100
AcDbScale
 70
     0
300
1" = 1'-0"
140
1.0
141
12.0
290
     0
  0
SCALE
  5
65
102
{ACAD_REACTORS
330
47
102
}
330
47
100
AcDbScale
 70
     0
300
1-1/2" = 1'-0"
140
1.5
141
12.0
290
     0
  0
SCALE
  5
66
102
{ACAD_REACTORS
330
47
102
}
330
47
100
AcDbScale
 70
     0
300
3" = 1'-0"
140
3.0
141
12.0
290
     0
  0
SCALE
  5
67
102
{ACAD_REACTORS
330
47
102
}
330
47
100
AcDbScale
 70
     0
300
6" = 1'-0"
140
6.0
141
12.0
290
     0
  0
SCALE
  5
68
102
{ACAD_REACTORS
330
47
102
}
330
47
100
AcDbScale
 70
     0
300
1'-0" = 1'-0"
140
12.0
141
12.0
290
     0
  0
ENDSEC
  0
EOF
